Bruce Bernhart Mandolin Websites

Bruce Bernhart Mandolin Websites

In Minnesota, Bruce Bernhart has been a mandolin player/enthusiast since the mid-1980's


Lesson #3- Basic Chords



The Bernhart Mandolin Webpages offers original articles, lessons, tabs and information on the history of the mandolin, buying and building mandolins, basic chord structures, the different styles of playing, the various makes and models of mandolins available on the market, and the "best of the web" on mandolin topics presented by mandolin player/teacher Bruce Bernhart

Bruce Bernhart Mandolin Websites

Look for additional Bruce Bernhart mandolin articles and lessons on the Bernhart Websites

Crazy Creek- Dennis Ladd (mandolincafe.com)
   Am        ___      ___     ___        ___     ___      ___     ___
             |   |    |   |   |   |      |   |   |   |    |   |   |   |
A||----------------------------------|-----------------------------------
 ||o--------------------------0------|---0---3---2---0--------0----------
 ||o------------------2---5-------5--|--------------------5-------2---5--
 ||--2-------2---5-------------------|-----------------------------------
     |_______|        |_______|          |_______|        |_______|

     ___     ___      ___                E        ___
    |   |   |   |    |   |                       |   |
 -------0---------------------------|----0-------0---0----0-------0------
 ---0-------0---2----3---2---0------|----2----------------2--------------
 -----------------------------------|------------------------------------
 -----------------------------------|------------------------------------
    |_______|        |_______|           |_______|        |_______|

     C___     ___      ___     ___        ___     ___      ___     ___
     |   |   |   |    |   |   |   |      |   |   |   |    |   |   |   |
 ----0---3---0-----------------------|-----------------------------------
 ----3-----------5----3---5---3---0--|-------3---0-----------------------
 ------------------------------------|---5-----------5----2---0-------0--
 ------------------------------------|----------------------------5------
     |_______|        |_______|          |_______|        |_______|

     F___     ___     G___              E____     ___
     |   |   |   |    |   |             |    |   |   |
 ------------------------------------|-----------------------------------
 ------------------------------------|-----------2---2------------2------
 ----3---5---3---0-------------------|--1-sl-2------------2--------------
 ---------------------5---2---0------|--0-ho-1---------------------------
     |_______|        |_______|         |________|        |_______|

              ___      ___     _3_    Am        ___
             |   |    |   |   | | |            |   |
 ------------------------------------|---------0---0------------0------||
 ----------------2----5---3---2-3-2--|-0-------0--------0-------0-----o||
 ----2-------6----------------ho-po--|--------------------------------o||
 ------------------------------------|---------------------------------||
     |_______|        |_______|        |_______|        |_______|

     F        ___      ___     ___                ___      ___     ___
             |   |    |   |   |   |              |   |    |   |   |   |
B||--1-------------------------------|---1-------------------------------
 ||--0----------------0---3---0------|---0----------------0---3----0-----
 ||--------------5----------------6--|---------------5----------------3--
 ||----------------------------------|-----------------------------------
     |_______|        |_______|          |_______|        |_______|

     C___     ___      ___                        ___
     |   |   |   |    |   |                      |   |
 ------------------------------------|-----------------------------------
 ------------------------------------|-----------3---3------------3------
 ----------------0----2---5---2------|-----------2---2------------2------
 ----5---4---5-----------------------|---5----------------5--------------
     |_______|        |_______|          |_______|        |_______|

     F___     ___      ___     ___        ___     ___      ___     ___
     |   |   |   |    |   |   |   |      |   |   |   |    |   |   |   |
 ------------------------------------|-----------------------------------
 ----0-------0---3----0---3---0------|---0-------0---3----5---3---0------
 --------5------------------------6--|-------5------------------------5--
 ------------------------------------|-----------------------------------
     |_______|        |_______|          |_______|        |_______|

    C___     ___      ___     ___      E        ___
    |   |   |   |    |   |   |   |             |   |
 -----------------------------------|----------0---0------------0------||
 -------0---------------------------|----------2---2------------2------||
 ---2-------5---3----2---0-------0--|--2----------------2--------------||
 ----------------------------5------|----------------------------------||
    |_______|        |_______|         |_______|        |_______|

    Am        ___      ___     ___        ___     ___      ___     ___
             |   |    |   |   |   |      |   |   |   |    |   |   |   |
A||----------------------------------|-----------------------------------
 ||---------------------------0------|---0---3---2---0--------0----------
 ||-------------------2---5-------5--|--------------------5-------2---5--
 ||--2-------2---5-------------------|-----------------------------------
     |_______|        |_______|          |_______|        |_______|

     ___     ___      ___                E        ___
    |   |   |   |    |   |                       |   |
 -------0---------------------------|----0-------0---0----0-------0------
 ---0-------0---2----3---2---0------|----2----------------2--------------
 -----------------------------------|------------------------------------
 -----------------------------------|------------------------------------
    |_______|        |_______|           |_______|        |_______|

     C___     ___      ___     ___        ___     ___      ___     ___
     |   |   |   |    |   |   |   |      |   |   |   |    |   |   |   |
 ----0---3---0-----------------------|-----------------------------------
 ----3-----------5----3---5---3---0--|-------3---0-----------------------
 ------------------------------------|---5-----------5----2---0-------0--
 ------------------------------------|----------------------------5------
     |_______|        |_______|          |_______|        |_______|

     F___     ___     G___              E____     ___
     |   |   |   |    |   |             |    |   |   |
 ------------------------------------|-----------------------------------
 ------------------------------------|-----------2---2------------2------
 ----3---5---3---0-------------------|--1-sl-2------------2--------------
 ---------------------5---2---0------|--0-ho-1---------------------------
     |_______|        |_______|         |________|        |_______|

              ___      ___     _3_    Am        ___
             |   |    |   |   | | |            |   |
 ------------------------------------|---------0---0-------------------||
 ----------------2----5---3---2-3-2--|-0-------0--------0--------------||
 ----2-------6----------------ho-po--|---------------------------------||
 ------------------------------------|---------------------------------||
     |_______|        |_______|        |_______|        |_______|



Bruce Bernhart Mandolin Websites

Be sure to visit the other Bruce Bernhart Mandolin Websites:

Bruce Bernhart mandolin rock tabs

Bruce Bernhart mandolin lessons- common scales

Bruce Bernhart on buying and setting up your new mandolin

Bruce Bernhart mandolin lessons- tuning

Bruce Bernhart mandolin lessons- chord patterns

Bruce Bernhart on mandolin history and basic chord structures

Bruce Bernhart on string and saddle adjustment

Bruce Bernhart more tuning tips and whole/half steps

Bruce Bernhart on more chord patterns

Bruce Bernhart on the mandolin family

Bruce Bernhart on mandolin bluegrass chords and patterns


Bruce Bernhart on temperature considerations

Bruce Bernhart lessson on mandolin flats and sharps


Bruce Bernhart lesson on scales, circle of 5ths and meter


Bruce Bernhart on triads, gears

Bruce Bernhart mandolin chord diagrams

Bruce Bernhart on modern emergence of the mandolin

Bruce Bernhart on simple chords

Bruce Bernhart on whole and half-note steps on the mandolin

Bruce Bernhart mandolin practice excercises

Bruce Bernhart on playing waltzes


Bruce Bernhart on majors, minors and sevenths


Bruce Bernhart Mandolin Websites

THANK YOU FOR VISITING THE BRUCE BERNHART MANDOLIN WEBSITES!


Also, check out the Bruce Bernhart RV Websites and Blogs:

Solar power for your RV

The care and feeding of your RV battery

The sport of "geocaching" and RV refrigeration basics

The basics of RV power inversion

RV travel tips and tire care

Advanced discussion on power inversion

Tips on buying a house battery and cold weather maintenance

RV Insurance basics

Buying the right generator for your RV and portable power

RV television reception options

Care and maintenance of the RV air conditioner

Top RV destinations

RV long-term supplies and weight considerations

RV Insurance- Road protection and bodily injury coverage

RV battery types and winter charging considerations

Deep cycle battery basics



Website Builder